Agenzie Viaggi, Tour Operator, Voli Low Cost, Last Minute, Offerte e Pacchetti Viaggi in Italia e nel Mondo ai prezzi più bassi!
Agenzie Viaggi, Tour Operator, Voli Low Cost, Last Minute, Offerte e Pacchetti Viaggi in Italia e nel Mondo ai prezzi più bassi!

Viaggio Proposto da: YOU TOUR | Altri Viaggi Proposti da quest'agenzia
SUNRISE DIAMOND BEACH RESORT | SETTEMARI CLUB | VILLAGGIO ITALIANO | SHARM EL SHEIKH - OM EL SID | Egitto

Per informazioni & prenotazioni
Tel 0429-50128
Telegram: YOUTOURVIAGGI
Facebook: YOUTOURVIAGGI
Email: info@youtourviaggi.com
Web: https://www.youtourviaggi.com

*****************************************

**FINO AL 29/02
PER PARTENZE DALL'1/05,
1° BAMBINO GRATIS
sulla quota pacchetto (sogg. + volo a/r),
FORFAIT sempre dovuto.**


SETTEMARI CLUB SUNRISE DIAMOND BEACH RESORT ----SOFT ALL INCLUSIVE

periodo---------------------PRENOTA PRIMA
Dal-------Al ------------90 giorni --------45 giorni

18/12----24/12-----------760€-------------820€
25/12----31/12-----------990€-----------1.050€
01/01----02/01-----------690€-------------730€
03/01----30/01-----------450€-------------480€
31/01----27/02-----------490€-------------520€
28/02----02/04-----------530€-------------560€
03/04----09/04-----------590€-------------625€
10/04----16/04-----------690€-------------730€
17/04----23/04-----------590€-------------625€
24/04----30/04-----------630€-------------670€
01/05----28/05-----------490€-------------520€
29/05----11/06-----------530€-------------560€
12/06----30/07-----------590€-------------625€
31/07----06/08-----------720€-------------765€
07/08----20/08-----------930€-------------985€
21/08----27/08-----------720€-------------765€
28/08----03/09-----------650€-------------690€
04/09----10/09-----------570€-------------610€
11/09----01/10-----------530€-------------560€
02/10----05/11-----------590€-------------625€
06/11----12/11-----------530€-------------560€
13/11–---10/12-----------490€-------------520€
11/12----16/12-----------470€-------------495€

*************************************

LA QUOTA INCLUDE:
VOLO A/R
TRASFERIMENTI AEROPORTO/HOTEL/AEROPORTO
7 NOTTI IN HOTEL
SISTEMAZIONE IN CAMERA DOPPIA
TRATTAMENTO COME DA OFFERTA

LA QUOTA NON INCLUDE:
Forfait con assicurazione inclusa di €260 e altri supplementi facoltativi.

************************************

Per informazioni & prenotazioni
Tel 0429-50128
Telegram: YOUTOURVIAGGI
Facebook: YOUTOURVIAGGI
Email: info@youtourviaggi.com
Web: https://www.youtourviaggi.com

15-ago-2020 Prezzo per persona 930.00 Euro - 7 Notti - Partenza da Bergamo
16-ago-2020 Prezzo per persona 930.00 Euro - 7 Notti - Partenza da Milano e Verona
22-ago-2020 Prezzo per persona 720.00 Euro - 7 Notti - Partenza da Bergamo
23-ago-2020 Prezzo per persona 720.00 Euro - 7 Notti - Partenza da Milano e Verona
29-ago-2020 Prezzo per persona 650.00 Euro - 7 Notti - Partenza da Bergamo
30-ago-2020 Prezzo per persona 650.00 Euro - 7 Notti - Partenza da Milano e Verona

programma
casa italia
Animazione
Programma gestito dagli animatori
SettemariClub integrati nel team
internazionale dell’hotel, che
comprende:
SEVENFIT
attività fitness, partite e tornei delle
varie discipline sportive
SEVENTIME
appuntamenti e aperitivi dedicati al
piacere di stare insieme
MINICLUB PIRATI DEI SETTEMARI
per bambini dai 4 (compiuti) ai 12 anni
(non compiuti)
SEVENTEEN CLUB
per i ragazzi dai 12 (compiuti) ai 18
anni (non compiuti)
I programmi settimanali di Casa Italia sono
subordinati al numero di presenze
ALL INCLU SIVE
SOFT 24 ORE
PASTI
• pensione completa presso i ristoranti
principali a buffet
• snack dolci e salati in diversi momenti
della giornata
• possibilità di pranzare presso lo snack
bar in spiaggia (disponibili solo bevande
analcoliche)
• possibilità di cenare presso i ristoranti à
la carte (previa prenotazione)
BEVANDE
• bevande analcoliche (acqua, soft drink)
durante i pasti e 24 ore su 24 presso il
lobby bar, tramite dispenser o servite in
bicchiere dal personale, tè e caffè (incluso
espresso locale), e alcoliche durante i
pasti presso i ristoranti a buffet (vino e
birra locali)
• una fornitura minibar di benvenuto
all’arrivo (acqua, soft drink)
IN PIù
• utilizzo di ombrelloni e lettini alla piscina
e alla spiaggia (fino ad esaurimento), teli
mare